ISO-10303-21;
HEADER;
FILE_DESCRIPTION((''),'2;1');
FILE_NAME('ZSOF034CR','2021-04-12T13:29:00',('ut3'),('PAFFONI SpA'),
'CREO PARAMETRIC BY PTC INC, 2020044','CREO PARAMETRIC BY PTC INC, 2020044','');
FILE_SCHEMA(('CONFIG_CONTROL_DESIGN','SHAPE_APPEARANCE_LAYERS_GROUPS'));
ENDSEC;
DATA;
#17=CARTESIAN_POINT('',(3.92E2,-5.8E1,0.E0));
#18=DIRECTION('',(0.E0,-1.E0,0.E0));
#19=DIRECTION('',(1.E0,0.E0,0.E0));
#20=AXIS2_PLACEMENT_3D('',#17,#18,#19);
#22=DIRECTION('',(0.E0,-1.E0,0.E0));
#23=VECTOR('',#22,4.25E1);
#24=CARTESIAN_POINT('',(3.8E2,-1.55E1,0.E0));
#25=LINE('',#24,#23);
#26=CARTESIAN_POINT('',(3.92E2,-5.8E1,0.E0));
#27=DIRECTION('',(0.E0,1.E0,0.E0));
#28=DIRECTION('',(1.E0,0.E0,0.E0));
#29=AXIS2_PLACEMENT_3D('',#26,#27,#28);
#31=DIRECTION('',(0.E0,1.E0,0.E0));
#32=VECTOR('',#31,4.25E1);
#33=CARTESIAN_POINT('',(4.04E2,-5.8E1,0.E0));
#34=LINE('',#33,#32);
#35=CARTESIAN_POINT('',(3.92E2,-5.8E1,0.E0));
#36=DIRECTION('',(0.E0,1.E0,0.E0));
#37=DIRECTION('',(1.E0,0.E0,0.E0));
#38=AXIS2_PLACEMENT_3D('',#35,#36,#37);
#40=CARTESIAN_POINT('',(3.92E2,-5.8E1,0.E0));
#41=DIRECTION('',(0.E0,-1.E0,0.E0));
#42=DIRECTION('',(1.E0,0.E0,0.E0));
#43=AXIS2_PLACEMENT_3D('',#40,#41,#42);
#45=DIRECTION('',(0.E0,1.E0,0.E0));
#46=VECTOR('',#45,2.E0);
#47=CARTESIAN_POINT('',(4.0125E2,-6.E1,0.E0));
#48=LINE('',#47,#46);
#49=DIRECTION('',(0.E0,1.E0,0.E0));
#50=VECTOR('',#49,2.E0);
#51=CARTESIAN_POINT('',(3.8275E2,-6.E1,0.E0));
#52=LINE('',#51,#50);
#53=CARTESIAN_POINT('',(3.92E2,-6.E1,0.E0));
#54=DIRECTION('',(0.E0,1.E0,0.E0));
#55=DIRECTION('',(1.E0,0.E0,0.E0));
#56=AXIS2_PLACEMENT_3D('',#53,#54,#55);
#58=CARTESIAN_POINT('',(3.92E2,-6.E1,0.E0));
#59=DIRECTION('',(0.E0,-1.E0,0.E0));
#60=DIRECTION('',(1.E0,0.E0,0.E0));
#61=AXIS2_PLACEMENT_3D('',#58,#59,#60);
#63=CARTESIAN_POINT('',(3.92E2,-6.E1,0.E0));
#64=DIRECTION('',(0.E0,1.E0,0.E0));
#65=DIRECTION('',(1.E0,0.E0,0.E0));
#66=AXIS2_PLACEMENT_3D('',#63,#64,#65);
#68=CARTESIAN_POINT('',(3.92E2,-6.E1,0.E0));
#69=DIRECTION('',(0.E0,-1.E0,0.E0));
#70=DIRECTION('',(1.E0,0.E0,0.E0));
#71=AXIS2_PLACEMENT_3D('',#68,#69,#70);
#73=CARTESIAN_POINT('',(3.92E2,-6.742264973081E1,0.E0));
#74=DIRECTION('',(0.E0,1.E0,0.E0));
#75=DIRECTION('',(1.E0,0.E0,0.E0));
#76=AXIS2_PLACEMENT_3D('',#73,#74,#75);
#78=DIRECTION('',(2.067687907823E-12,1.E0,1.362761041112E-11));
#79=VECTOR('',#78,7.422649730819E0);
#80=CARTESIAN_POINT('',(4.025E2,-6.742264973082E1,-1.011521214870E-10));
#81=LINE('',#80,#79);
#82=DIRECTION('',(-2.067687907823E-12,1.E0,-1.362748857634E-11));
#83=VECTOR('',#82,7.422649730819E0);
#84=CARTESIAN_POINT('',(3.815E2,-6.742264973082E1,1.011512171702E-10));
#85=LINE('',#84,#83);
#86=DIRECTION('',(-8.660254037844E-1,-5.E-1,-1.807719858410E-11));
#87=VECTOR('',#86,1.154700538383E0);
#88=CARTESIAN_POINT('',(4.025E2,-6.742264973082E1,-1.011521214870E-10));
#89=LINE('',#88,#87);
#90=DIRECTION('',(8.660254037844E-1,-5.E-1,1.807703697580E-11));
#91=VECTOR('',#90,1.154700538383E0);
#92=CARTESIAN_POINT('',(3.815E2,-6.742264973082E1,1.011512171702E-10));
#93=LINE('',#92,#91);
#94=CARTESIAN_POINT('',(3.92E2,-6.742264973081E1,0.E0));
#95=DIRECTION('',(0.E0,1.E0,0.E0));
#96=DIRECTION('',(-1.E0,0.E0,0.E0));
#97=AXIS2_PLACEMENT_3D('',#94,#95,#96);
#99=CARTESIAN_POINT('',(3.92E2,-6.8E1,0.E0));
#100=DIRECTION('',(0.E0,1.E0,0.E0));
#101=DIRECTION('',(1.E0,0.E0,0.E0));
#102=AXIS2_PLACEMENT_3D('',#99,#100,#101);
#104=CARTESIAN_POINT('',(3.92E2,-6.8E1,0.E0));
#105=DIRECTION('',(0.E0,1.E0,0.E0));
#106=DIRECTION('',(-1.E0,0.E0,0.E0));
#107=AXIS2_PLACEMENT_3D('',#104,#105,#106);
#109=CARTESIAN_POINT('',(3.92E2,-1.55E1,0.E0));
#110=DIRECTION('',(0.E0,-1.E0,0.E0));
#111=DIRECTION('',(-1.E0,0.E0,0.E0));
#112=AXIS2_PLACEMENT_3D('',#109,#110,#111);
#114=CARTESIAN_POINT('',(3.765E2,0.E0,0.E0));
#115=DIRECTION('',(-1.E0,0.E0,0.E0));
#116=DIRECTION('',(0.E0,1.E0,0.E0));
#117=AXIS2_PLACEMENT_3D('',#114,#115,#116);
#119=CARTESIAN_POINT('',(3.765E2,-1.55E1,0.E0));
#120=DIRECTION('',(0.E0,0.E0,-1.E0));
#121=DIRECTION('',(0.E0,1.E0,0.E0));
#122=AXIS2_PLACEMENT_3D('',#119,#120,#121);
#124=CARTESIAN_POINT('',(3.92E2,-1.55E1,0.E0));
#125=DIRECTION('',(0.E0,-1.E0,0.E0));
#126=DIRECTION('',(1.E0,0.E0,0.E0));
#127=AXIS2_PLACEMENT_3D('',#124,#125,#126);
#129=CARTESIAN_POINT('',(3.765E2,0.E0,0.E0));
#130=DIRECTION('',(-1.E0,0.E0,0.E0));
#131=DIRECTION('',(0.E0,-1.E0,0.E0));
#132=AXIS2_PLACEMENT_3D('',#129,#130,#131);
#134=CARTESIAN_POINT('',(3.765E2,-1.55E1,0.E0));
#135=DIRECTION('',(0.E0,0.E0,-1.E0));
#136=DIRECTION('',(0.E0,1.E0,0.E0));
#137=AXIS2_PLACEMENT_3D('',#134,#135,#136);
#139=CARTESIAN_POINT('',(1.3E1,0.E0,0.E0));
#140=DIRECTION('',(-1.E0,0.E0,0.E0));
#141=DIRECTION('',(0.E0,-1.E0,0.E0));
#142=AXIS2_PLACEMENT_3D('',#139,#140,#141);
#144=DIRECTION('',(1.E0,0.E0,0.E0));
#145=VECTOR('',#144,3.635E2);
#146=CARTESIAN_POINT('',(1.3E1,1.2E1,0.E0));
#147=LINE('',#146,#145);
#148=CARTESIAN_POINT('',(1.3E1,0.E0,0.E0));
#149=DIRECTION('',(1.E0,0.E0,0.E0));
#150=DIRECTION('',(0.E0,-1.E0,0.E0));
#151=AXIS2_PLACEMENT_3D('',#148,#149,#150);
#153=CARTESIAN_POINT('',(1.3E1,0.E0,0.E0));
#154=DIRECTION('',(-1.E0,0.E0,0.E0));
#155=DIRECTION('',(0.E0,-1.E0,0.E0));
#156=AXIS2_PLACEMENT_3D('',#153,#154,#155);
#158=DIRECTION('',(1.E0,0.E0,0.E0));
#159=VECTOR('',#158,1.5E1);
#160=CARTESIAN_POINT('',(-2.E0,-3.E1,0.E0));
#161=LINE('',#160,#159);
#162=DIRECTION('',(1.E0,0.E0,0.E0));
#163=VECTOR('',#162,1.5E1);
#164=CARTESIAN_POINT('',(-2.E0,3.E1,0.E0));
#165=LINE('',#164,#163);
#166=CARTESIAN_POINT('',(-2.E0,0.E0,0.E0));
#167=DIRECTION('',(1.E0,0.E0,0.E0));
#168=DIRECTION('',(0.E0,-1.E0,0.E0));
#169=AXIS2_PLACEMENT_3D('',#166,#167,#168);
#171=CARTESIAN_POINT('',(-2.E0,0.E0,0.E0));
#172=DIRECTION('',(-1.E0,0.E0,0.E0));
#173=DIRECTION('',(0.E0,-1.E0,0.E0));
#174=AXIS2_PLACEMENT_3D('',#171,#172,#173);
#176=CARTESIAN_POINT('',(1.3E1,0.E0,0.E0));
#177=DIRECTION('',(-1.E0,0.E0,0.E0));
#178=DIRECTION('',(0.E0,1.E0,0.E0));
#179=AXIS2_PLACEMENT_3D('',#176,#177,#178);
#181=DIRECTION('',(1.E0,0.E0,0.E0));
#182=VECTOR('',#181,3.635E2);
#183=CARTESIAN_POINT('',(1.3E1,-1.2E1,0.E0));
#184=LINE('',#183,#182);
#185=CARTESIAN_POINT('',(4.04E2,-1.55E1,0.E0));
#186=CARTESIAN_POINT('',(3.8E2,-1.55E1,0.E0));
#187=VERTEX_POINT('',#185);
#188=VERTEX_POINT('',#186);
#189=CARTESIAN_POINT('',(3.765E2,1.2E1,0.E0));
#190=VERTEX_POINT('',#189);
#191=CARTESIAN_POINT('',(3.765E2,-1.2E1,0.E0));
#192=VERTEX_POINT('',#191);
#193=CARTESIAN_POINT('',(4.0125E2,-6.E1,0.E0));
#194=CARTESIAN_POINT('',(4.0125E2,-5.8E1,0.E0));
#195=VERTEX_POINT('',#193);
#196=VERTEX_POINT('',#194);
#197=CARTESIAN_POINT('',(3.8275E2,-6.E1,0.E0));
#198=CARTESIAN_POINT('',(3.8275E2,-5.8E1,0.E0));
#199=VERTEX_POINT('',#197);
#200=VERTEX_POINT('',#198);
#201=CARTESIAN_POINT('',(4.025E2,-6.E1,0.E0));
#202=CARTESIAN_POINT('',(3.815E2,-6.E1,0.E0));
#203=VERTEX_POINT('',#201);
#204=VERTEX_POINT('',#202);
#205=CARTESIAN_POINT('',(4.04E2,-5.8E1,0.E0));
#206=CARTESIAN_POINT('',(3.8E2,-5.8E1,0.E0));
#207=VERTEX_POINT('',#205);
#208=VERTEX_POINT('',#206);
#209=CARTESIAN_POINT('',(4.025E2,-6.742264973081E1,0.E0));
#210=CARTESIAN_POINT('',(3.815E2,-6.742264973081E1,0.E0));
#211=VERTEX_POINT('',#209);
#212=VERTEX_POINT('',#210);
#213=CARTESIAN_POINT('',(4.015E2,-6.8E1,0.E0));
#214=CARTESIAN_POINT('',(3.825E2,-6.8E1,0.E0));
#215=VERTEX_POINT('',#213);
#216=VERTEX_POINT('',#214);
#217=CARTESIAN_POINT('',(-2.E0,-3.E1,0.E0));
#218=CARTESIAN_POINT('',(1.3E1,-3.E1,0.E0));
#219=VERTEX_POINT('',#217);
#220=VERTEX_POINT('',#218);
#221=CARTESIAN_POINT('',(-2.E0,3.E1,0.E0));
#222=CARTESIAN_POINT('',(1.3E1,3.E1,0.E0));
#223=VERTEX_POINT('',#221);
#224=VERTEX_POINT('',#222);
#225=CARTESIAN_POINT('',(1.3E1,-1.2E1,0.E0));
#226=CARTESIAN_POINT('',(1.3E1,1.2E1,0.E0));
#227=VERTEX_POINT('',#225);
#228=VERTEX_POINT('',#226);
#229=CARTESIAN_POINT('',(3.92E2,-5.5E1,0.E0));
#230=DIRECTION('',(0.E0,1.E0,0.E0));
#231=DIRECTION('',(-1.E0,0.E0,0.E0));
#232=AXIS2_PLACEMENT_3D('',#229,#230,#231);
#233=CYLINDRICAL_SURFACE('',#232,1.2E1);
#235=ORIENTED_EDGE('',*,*,#234,.F.);
#237=ORIENTED_EDGE('',*,*,#236,.T.);
#239=ORIENTED_EDGE('',*,*,#238,.F.);
#241=ORIENTED_EDGE('',*,*,#240,.F.);
#242=EDGE_LOOP('',(#235,#237,#239,#241));
#243=FACE_OUTER_BOUND('',#242,.F.);
#244=ADVANCED_FACE('',(#243),#233,.T.);
#245=CARTESIAN_POINT('',(3.92E2,-5.5E1,0.E0));
#246=DIRECTION('',(0.E0,1.E0,0.E0));
#247=DIRECTION('',(-1.E0,0.E0,0.E0));
#248=AXIS2_PLACEMENT_3D('',#245,#246,#247);
#249=CYLINDRICAL_SURFACE('',#248,1.2E1);
#250=ORIENTED_EDGE('',*,*,#238,.T.);
#252=ORIENTED_EDGE('',*,*,#251,.F.);
#253=ORIENTED_EDGE('',*,*,#234,.T.);
#255=ORIENTED_EDGE('',*,*,#254,.F.);
#256=EDGE_LOOP('',(#250,#252,#253,#255));
#257=FACE_OUTER_BOUND('',#256,.F.);
#258=ADVANCED_FACE('',(#257),#249,.T.);
#259=CARTESIAN_POINT('',(3.92E2,-5.8E1,0.E0));
#260=DIRECTION('',(0.E0,-1.E0,0.E0));
#261=DIRECTION('',(-1.E0,0.E0,0.E0));
#262=AXIS2_PLACEMENT_3D('',#259,#260,#261);
#263=PLANE('',#262);
#264=ORIENTED_EDGE('',*,*,#236,.F.);
#265=ORIENTED_EDGE('',*,*,#251,.T.);
#266=EDGE_LOOP('',(#264,#265));
#267=FACE_OUTER_BOUND('',#266,.F.);
#269=ORIENTED_EDGE('',*,*,#268,.F.);
#271=ORIENTED_EDGE('',*,*,#270,.T.);
#272=EDGE_LOOP('',(#269,#271));
#273=FACE_BOUND('',#272,.F.);
#274=ADVANCED_FACE('',(#267,#273),#263,.T.);
#275=FILL_AREA_STYLE_COLOUR('',#9);
#276=FILL_AREA_STYLE('',(#275));
#277=SURFACE_STYLE_FILL_AREA(#276);
#278=SURFACE_SIDE_STYLE('',(#277));
#279=SURFACE_STYLE_USAGE(.BOTH.,#278);
#280=PRESENTATION_STYLE_ASSIGNMENT((#279));
#281=STYLED_ITEM('',(#280),#274);
#282=CARTESIAN_POINT('',(3.92E2,-4.595E1,0.E0));
#283=DIRECTION('',(0.E0,-1.E0,0.E0));
#284=DIRECTION('',(-1.E0,0.E0,0.E0));
#285=AXIS2_PLACEMENT_3D('',#282,#283,#284);
#286=CYLINDRICAL_SURFACE('',#285,9.25E0);
#288=ORIENTED_EDGE('',*,*,#287,.T.);
#289=ORIENTED_EDGE('',*,*,#268,.T.);
#291=ORIENTED_EDGE('',*,*,#290,.F.);
#293=ORIENTED_EDGE('',*,*,#292,.F.);
#294=EDGE_LOOP('',(#288,#289,#291,#293));
#295=FACE_OUTER_BOUND('',#294,.F.);
#296=ADVANCED_FACE('',(#295),#286,.T.);
#297=FILL_AREA_STYLE_COLOUR('',#9);
#298=FILL_AREA_STYLE('',(#297));
#299=SURFACE_STYLE_FILL_AREA(#298);
#300=SURFACE_SIDE_STYLE('',(#299));
#301=SURFACE_STYLE_USAGE(.BOTH.,#300);
#302=PRESENTATION_STYLE_ASSIGNMENT((#301));
#303=STYLED_ITEM('',(#302),#296);
#304=CARTESIAN_POINT('',(3.92E2,-4.595E1,0.E0));
#305=DIRECTION('',(0.E0,-1.E0,0.E0));
#306=DIRECTION('',(-1.E0,0.E0,0.E0));
#307=AXIS2_PLACEMENT_3D('',#304,#305,#306);
#308=CYLINDRICAL_SURFACE('',#307,9.25E0);
#309=ORIENTED_EDGE('',*,*,#287,.F.);
#311=ORIENTED_EDGE('',*,*,#310,.T.);
#312=ORIENTED_EDGE('',*,*,#290,.T.);
#313=ORIENTED_EDGE('',*,*,#270,.F.);
#314=EDGE_LOOP('',(#309,#311,#312,#313));
#315=FACE_OUTER_BOUND('',#314,.F.);
#316=ADVANCED_FACE('',(#315),#308,.T.);
#317=FILL_AREA_STYLE_COLOUR('',#9);
#318=FILL_AREA_STYLE('',(#317));
#319=SURFACE_STYLE_FILL_AREA(#318);
#320=SURFACE_SIDE_STYLE('',(#319));
#321=SURFACE_STYLE_USAGE(.BOTH.,#320);
#322=PRESENTATION_STYLE_ASSIGNMENT((#321));
#323=STYLED_ITEM('',(#322),#316);
#324=CARTESIAN_POINT('',(3.92E2,-6.E1,0.E0));
#325=DIRECTION('',(0.E0,-1.E0,0.E0));
#326=DIRECTION('',(-1.E0,0.E0,0.E0));
#327=AXIS2_PLACEMENT_3D('',#324,#325,#326);
#328=PLANE('',#327);
#330=ORIENTED_EDGE('',*,*,#329,.F.);
#332=ORIENTED_EDGE('',*,*,#331,.T.);
#333=EDGE_LOOP('',(#330,#332));
#334=FACE_OUTER_BOUND('',#333,.F.);
#335=ORIENTED_EDGE('',*,*,#310,.F.);
#336=ORIENTED_EDGE('',*,*,#292,.T.);
#337=EDGE_LOOP('',(#335,#336));
#338=FACE_BOUND('',#337,.F.);
#339=ADVANCED_FACE('',(#334,#338),#328,.F.);
#340=FILL_AREA_STYLE_COLOUR('',#9);
#341=FILL_AREA_STYLE('',(#340));
#342=SURFACE_STYLE_FILL_AREA(#341);
#343=SURFACE_SIDE_STYLE('',(#342));
#344=SURFACE_STYLE_USAGE(.BOTH.,#343);
#345=PRESENTATION_STYLE_ASSIGNMENT((#344));
#346=STYLED_ITEM('',(#345),#339);
#347=CARTESIAN_POINT('',(3.92E2,-4.595E1,0.E0));
#348=DIRECTION('',(0.E0,-1.E0,0.E0));
#349=DIRECTION('',(-1.E0,0.E0,0.E0));
#350=AXIS2_PLACEMENT_3D('',#347,#348,#349);
#351=CYLINDRICAL_SURFACE('',#350,1.05E1);
#353=ORIENTED_EDGE('',*,*,#352,.F.);
#355=ORIENTED_EDGE('',*,*,#354,.T.);
#356=ORIENTED_EDGE('',*,*,#329,.T.);
#358=ORIENTED_EDGE('',*,*,#357,.F.);
#359=EDGE_LOOP('',(#353,#355,#356,#358));
#360=FACE_OUTER_BOUND('',#359,.F.);
#361=ADVANCED_FACE('',(#360),#351,.T.);
#362=FILL_AREA_STYLE_COLOUR('',#9);
#363=FILL_AREA_STYLE('',(#362));
#364=SURFACE_STYLE_FILL_AREA(#363);
#365=SURFACE_SIDE_STYLE('',(#364));
#366=SURFACE_STYLE_USAGE(.BOTH.,#365);
#367=PRESENTATION_STYLE_ASSIGNMENT((#366));
#368=STYLED_ITEM('',(#367),#361);
#369=CARTESIAN_POINT('',(3.92E2,-6.771132486541E1,0.E0));
#370=DIRECTION('',(0.E0,1.E0,0.E0));
#371=DIRECTION('',(0.E0,0.E0,-1.E0));
#372=AXIS2_PLACEMENT_3D('',#369,#370,#371);
#373=CONICAL_SURFACE('',#372,9.999999999985E0,6.E1);
#374=ORIENTED_EDGE('',*,*,#352,.T.);
#376=ORIENTED_EDGE('',*,*,#375,.T.);
#378=ORIENTED_EDGE('',*,*,#377,.F.);
#380=ORIENTED_EDGE('',*,*,#379,.F.);
#381=EDGE_LOOP('',(#374,#376,#378,#380));
#382=FACE_OUTER_BOUND('',#381,.F.);
#383=ADVANCED_FACE('',(#382),#373,.T.);
#384=FILL_AREA_STYLE_COLOUR('',#9);
#385=FILL_AREA_STYLE('',(#384));
#386=SURFACE_STYLE_FILL_AREA(#385);
#387=SURFACE_SIDE_STYLE('',(#386));
#388=SURFACE_STYLE_USAGE(.BOTH.,#387);
#389=PRESENTATION_STYLE_ASSIGNMENT((#388));
#390=STYLED_ITEM('',(#389),#383);
#391=CARTESIAN_POINT('',(3.92E2,-6.771132486541E1,0.E0));
#392=DIRECTION('',(0.E0,1.E0,0.E0));
#393=DIRECTION('',(0.E0,0.E0,-1.E0));
#394=AXIS2_PLACEMENT_3D('',#391,#392,#393);
#395=CONICAL_SURFACE('',#394,9.999999999985E0,6.E1);
#397=ORIENTED_EDGE('',*,*,#396,.T.);
#398=ORIENTED_EDGE('',*,*,#379,.T.);
#400=ORIENTED_EDGE('',*,*,#399,.F.);
#401=ORIENTED_EDGE('',*,*,#375,.F.);
#402=EDGE_LOOP('',(#397,#398,#400,#401));
#403=FACE_OUTER_BOUND('',#402,.F.);
#404=ADVANCED_FACE('',(#403),#395,.T.);
#405=FILL_AREA_STYLE_COLOUR('',#9);
#406=FILL_AREA_STYLE('',(#405));
#407=SURFACE_STYLE_FILL_AREA(#406);
#408=SURFACE_SIDE_STYLE('',(#407));
#409=SURFACE_STYLE_USAGE(.BOTH.,#408);
#410=PRESENTATION_STYLE_ASSIGNMENT((#409));
#411=STYLED_ITEM('',(#410),#404);
#412=CARTESIAN_POINT('',(3.92E2,-4.595E1,0.E0));
#413=DIRECTION('',(0.E0,-1.E0,0.E0));
#414=DIRECTION('',(-1.E0,0.E0,0.E0));
#415=AXIS2_PLACEMENT_3D('',#412,#413,#414);
#416=CYLINDRICAL_SURFACE('',#415,1.05E1);
#417=ORIENTED_EDGE('',*,*,#396,.F.);
#418=ORIENTED_EDGE('',*,*,#357,.T.);
#419=ORIENTED_EDGE('',*,*,#331,.F.);
#420=ORIENTED_EDGE('',*,*,#354,.F.);
#421=EDGE_LOOP('',(#417,#418,#419,#420));
#422=FACE_OUTER_BOUND('',#421,.F.);
#423=ADVANCED_FACE('',(#422),#416,.T.);
#424=FILL_AREA_STYLE_COLOUR('',#9);
#425=FILL_AREA_STYLE('',(#424));
#426=SURFACE_STYLE_FILL_AREA(#425);
#427=SURFACE_SIDE_STYLE('',(#426));
#428=SURFACE_STYLE_USAGE(.BOTH.,#427);
#429=PRESENTATION_STYLE_ASSIGNMENT((#428));
#430=STYLED_ITEM('',(#429),#423);
#431=CARTESIAN_POINT('',(3.92E2,-6.8E1,0.E0));
#432=DIRECTION('',(0.E0,-1.E0,0.E0));
#433=DIRECTION('',(-1.E0,0.E0,0.E0));
#434=AXIS2_PLACEMENT_3D('',#431,#432,#433);
#435=PLANE('',#434);
#436=ORIENTED_EDGE('',*,*,#377,.T.);
#437=ORIENTED_EDGE('',*,*,#399,.T.);
#438=EDGE_LOOP('',(#436,#437));
#439=FACE_OUTER_BOUND('',#438,.F.);
#440=ADVANCED_FACE('',(#439),#435,.T.);
#441=FILL_AREA_STYLE_COLOUR('',#9);
#442=FILL_AREA_STYLE('',(#441));
#443=SURFACE_STYLE_FILL_AREA(#442);
#444=SURFACE_SIDE_STYLE('',(#443));
#445=SURFACE_STYLE_USAGE(.BOTH.,#444);
#446=PRESENTATION_STYLE_ASSIGNMENT((#445));
#447=STYLED_ITEM('',(#446),#440);
#448=CARTESIAN_POINT('',(3.765E2,-1.55E1,0.E0));
#449=DIRECTION('',(0.E0,0.E0,1.E0));
#450=DIRECTION('',(-1.E0,0.E0,0.E0));
#451=AXIS2_PLACEMENT_3D('',#448,#449,#450);
#452=TOROIDAL_SURFACE('',#451,1.55E1,1.2E1);
#453=ORIENTED_EDGE('',*,*,#254,.T.);
#455=ORIENTED_EDGE('',*,*,#454,.F.);
#457=ORIENTED_EDGE('',*,*,#456,.T.);
#459=ORIENTED_EDGE('',*,*,#458,.T.);
#460=EDGE_LOOP('',(#453,#455,#457,#459));
#461=FACE_OUTER_BOUND('',#460,.F.);
#462=ADVANCED_FACE('',(#461),#452,.T.);
#463=CARTESIAN_POINT('',(3.765E2,-1.55E1,0.E0));
#464=DIRECTION('',(0.E0,0.E0,1.E0));
#465=DIRECTION('',(-1.E0,0.E0,0.E0));
#466=AXIS2_PLACEMENT_3D('',#463,#464,#465);
#467=TOROIDAL_SURFACE('',#466,1.55E1,1.2E1);
#468=ORIENTED_EDGE('',*,*,#240,.T.);
#469=ORIENTED_EDGE('',*,*,#458,.F.);
#471=ORIENTED_EDGE('',*,*,#470,.T.);
#472=ORIENTED_EDGE('',*,*,#454,.T.);
#473=EDGE_LOOP('',(#468,#469,#471,#472));
#474=FACE_OUTER_BOUND('',#473,.F.);
#475=ADVANCED_FACE('',(#474),#467,.T.);
#476=CARTESIAN_POINT('',(3.765E2,0.E0,0.E0));
#477=DIRECTION('',(-1.E0,0.E0,0.E0));
#478=DIRECTION('',(0.E0,-1.E0,0.E0));
#479=AXIS2_PLACEMENT_3D('',#476,#477,#478);
#480=CYLINDRICAL_SURFACE('',#479,1.2E1);
#482=ORIENTED_EDGE('',*,*,#481,.T.);
#484=ORIENTED_EDGE('',*,*,#483,.T.);
#485=ORIENTED_EDGE('',*,*,#470,.F.);
#487=ORIENTED_EDGE('',*,*,#486,.F.);
#488=EDGE_LOOP('',(#482,#484,#485,#487));
#489=FACE_OUTER_BOUND('',#488,.F.);
#490=ADVANCED_FACE('',(#489),#480,.T.);
#491=CARTESIAN_POINT('',(1.3E1,0.E0,0.E0));
#492=DIRECTION('',(-1.E0,0.E0,0.E0));
#493=DIRECTION('',(0.E0,1.E0,0.E0));
#494=AXIS2_PLACEMENT_3D('',#491,#492,#493);
#495=PLANE('',#494);
#497=ORIENTED_EDGE('',*,*,#496,.F.);
#499=ORIENTED_EDGE('',*,*,#498,.T.);
#500=EDGE_LOOP('',(#497,#499));
#501=FACE_OUTER_BOUND('',#500,.F.);
#502=ORIENTED_EDGE('',*,*,#481,.F.);
#504=ORIENTED_EDGE('',*,*,#503,.F.);
#505=EDGE_LOOP('',(#502,#504));
#506=FACE_BOUND('',#505,.F.);
#507=ADVANCED_FACE('',(#501,#506),#495,.F.);
#508=FILL_AREA_STYLE_COLOUR('',#10);
#509=FILL_AREA_STYLE('',(#508));
#510=SURFACE_STYLE_FILL_AREA(#509);
#511=SURFACE_SIDE_STYLE('',(#510));
#512=SURFACE_STYLE_USAGE(.BOTH.,#511);
#513=PRESENTATION_STYLE_ASSIGNMENT((#512));
#514=STYLED_ITEM('',(#513),#507);
#515=CARTESIAN_POINT('',(1.375E1,0.E0,0.E0));
#516=DIRECTION('',(-1.E0,0.E0,0.E0));
#517=DIRECTION('',(0.E0,1.E0,0.E0));
#518=AXIS2_PLACEMENT_3D('',#515,#516,#517);
#519=CYLINDRICAL_SURFACE('',#518,3.E1);
#521=ORIENTED_EDGE('',*,*,#520,.T.);
#522=ORIENTED_EDGE('',*,*,#496,.T.);
#524=ORIENTED_EDGE('',*,*,#523,.F.);
#526=ORIENTED_EDGE('',*,*,#525,.F.);
#527=EDGE_LOOP('',(#521,#522,#524,#526));
#528=FACE_OUTER_BOUND('',#527,.F.);
#529=ADVANCED_FACE('',(#528),#519,.T.);
#530=FILL_AREA_STYLE_COLOUR('',#10);
#531=FILL_AREA_STYLE('',(#530));
#532=SURFACE_STYLE_FILL_AREA(#531);
#533=SURFACE_SIDE_STYLE('',(#532));
#534=SURFACE_STYLE_USAGE(.BOTH.,#533);
#535=PRESENTATION_STYLE_ASSIGNMENT((#534));
#536=STYLED_ITEM('',(#535),#529);
#537=CARTESIAN_POINT('',(1.375E1,0.E0,0.E0));
#538=DIRECTION('',(-1.E0,0.E0,0.E0));
#539=DIRECTION('',(0.E0,1.E0,0.E0));
#540=AXIS2_PLACEMENT_3D('',#537,#538,#539);
#541=CYLINDRICAL_SURFACE('',#540,3.E1);
#542=ORIENTED_EDGE('',*,*,#520,.F.);
#544=ORIENTED_EDGE('',*,*,#543,.T.);
#545=ORIENTED_EDGE('',*,*,#523,.T.);
#546=ORIENTED_EDGE('',*,*,#498,.F.);
#547=EDGE_LOOP('',(#542,#544,#545,#546));
#548=FACE_OUTER_BOUND('',#547,.F.);
#549=ADVANCED_FACE('',(#548),#541,.T.);
#550=FILL_AREA_STYLE_COLOUR('',#10);
#551=FILL_AREA_STYLE('',(#550));
#552=SURFACE_STYLE_FILL_AREA(#551);
#553=SURFACE_SIDE_STYLE('',(#552));
#554=SURFACE_STYLE_USAGE(.BOTH.,#553);
#555=PRESENTATION_STYLE_ASSIGNMENT((#554));
#556=STYLED_ITEM('',(#555),#549);
#557=CARTESIAN_POINT('',(-2.E0,0.E0,0.E0));
#558=DIRECTION('',(-1.E0,0.E0,0.E0));
#559=DIRECTION('',(0.E0,0.E0,1.E0));
#560=AXIS2_PLACEMENT_3D('',#557,#558,#559);
#561=PLANE('',#560);
#562=ORIENTED_EDGE('',*,*,#543,.F.);
#563=ORIENTED_EDGE('',*,*,#525,.T.);
#564=EDGE_LOOP('',(#562,#563));
#565=FACE_OUTER_BOUND('',#564,.F.);
#566=ADVANCED_FACE('',(#565),#561,.T.);
#567=FILL_AREA_STYLE_COLOUR('',#15);
#568=FILL_AREA_STYLE('',(#567));
#569=SURFACE_STYLE_FILL_AREA(#568);
#570=SURFACE_SIDE_STYLE('',(#569));
#571=SURFACE_STYLE_USAGE(.BOTH.,#570);
#572=PRESENTATION_STYLE_ASSIGNMENT((#571));
#573=STYLED_ITEM('',(#572),#566);
#574=CARTESIAN_POINT('',(3.765E2,0.E0,0.E0));
#575=DIRECTION('',(-1.E0,0.E0,0.E0));
#576=DIRECTION('',(0.E0,-1.E0,0.E0));
#577=AXIS2_PLACEMENT_3D('',#574,#575,#576);
#578=CYLINDRICAL_SURFACE('',#577,1.2E1);
#579=ORIENTED_EDGE('',*,*,#503,.T.);
#580=ORIENTED_EDGE('',*,*,#486,.T.);
#581=ORIENTED_EDGE('',*,*,#456,.F.);
#582=ORIENTED_EDGE('',*,*,#483,.F.);
#583=EDGE_LOOP('',(#579,#580,#581,#582));
#584=FACE_OUTER_BOUND('',#583,.F.);
#585=ADVANCED_FACE('',(#584),#578,.T.);
#586=CLOSED_SHELL('',(#244,#258,#274,#296,#316,#339,#361,#383,#404,#423,#440,
#462,#475,#490,#507,#529,#549,#566,#585));
#587=MANIFOLD_SOLID_BREP('',#586);
#589=DIMENSIONAL_EXPONENTS(0.E0,0.E0,0.E0,0.E0,0.E0,0.E0,0.E0);
#591=PLANE_ANGLE_MEASURE_WITH_UNIT(PLANE_ANGLE_MEASURE(1.745329251994E-2),#590);
#592=(CONVERSION_BASED_UNIT('DEGREE',#591)NAMED_UNIT(*)PLANE_ANGLE_UNIT());
#594=UNCERTAINTY_MEASURE_WITH_UNIT(LENGTH_MEASURE(4.103566662705E-2),#588,
'closure',
'Maximum model space distance between geometric entities at asserted connectivities');
#595=(GEOMETRIC_REPRESENTATION_CONTEXT(3)GLOBAL_UNCERTAINTY_ASSIGNED_CONTEXT((
#594))GLOBAL_UNIT_ASSIGNED_CONTEXT((#588,#592,#593))REPRESENTATION_CONTEXT
('ID1','3'));
#597=MECHANICAL_DESIGN_GEOMETRIC_PRESENTATION_REPRESENTATION('',(#281,#303,#323,
#346,#368,#390,#411,#430,#447,#514,#536,#556,#573),#595);
#598=APPLICATION_CONTEXT(
'CONFIGURATION CONTROLLED 3D DESIGNS OF MECHANICAL PARTS AND ASSEMBLIES');
#599=APPLICATION_PROTOCOL_DEFINITION('international standard',
'config_control_design',1994,#598);
#600=DESIGN_CONTEXT('',#598,'design');
#601=MECHANICAL_CONTEXT('',#598,'mechanical');
#602=PRODUCT('ZSOF034CR','ZSOF034CR','NOT SPECIFIED',(#601));
#603=PRODUCT_DEFINITION_FORMATION_WITH_SPECIFIED_SOURCE('1','LAST_VERSION',#602,
.MADE.);
#607=PRODUCT_CATEGORY('part','');
#608=PRODUCT_RELATED_PRODUCT_CATEGORY('detail','',(#602));
#609=PRODUCT_CATEGORY_RELATIONSHIP('','',#607,#608);
#610=SECURITY_CLASSIFICATION_LEVEL('unclassified');
#611=SECURITY_CLASSIFICATION('','',#610);
#612=CC_DESIGN_SECURITY_CLASSIFICATION(#611,(#603));
#613=APPROVAL_STATUS('approved');
#614=APPROVAL(#613,'');
#615=CC_DESIGN_APPROVAL(#614,(#611,#603,#604));
#616=CALENDAR_DATE(121,12,4);
#617=COORDINATED_UNIVERSAL_TIME_OFFSET(2,0,.AHEAD.);
#618=LOCAL_TIME(13,29,0.E0,#617);
#619=DATE_AND_TIME(#616,#618);
#620=APPROVAL_DATE_TIME(#619,#614);
#621=DATE_TIME_ROLE('creation_date');
#622=CC_DESIGN_DATE_AND_TIME_ASSIGNMENT(#619,#621,(#604));
#623=DATE_TIME_ROLE('classification_date');
#624=CC_DESIGN_DATE_AND_TIME_ASSIGNMENT(#619,#623,(#611));
#625=PERSON('UNSPECIFIED','UNSPECIFIED',$,$,$,$);
#626=ORGANIZATION('UNSPECIFIED','UNSPECIFIED','UNSPECIFIED');
#627=PERSON_AND_ORGANIZATION(#625,#626);
#628=APPROVAL_ROLE('approver');
#629=APPROVAL_PERSON_ORGANIZATION(#627,#614,#628);
#630=PERSON_AND_ORGANIZATION_ROLE('creator');
#631=CC_DESIGN_PERSON_AND_ORGANIZATION_ASSIGNMENT(#627,#630,(#603,#604));
#632=PERSON_AND_ORGANIZATION_ROLE('design_supplier');
#633=CC_DESIGN_PERSON_AND_ORGANIZATION_ASSIGNMENT(#627,#632,(#603));
#634=PERSON_AND_ORGANIZATION_ROLE('classification_officer');
#635=CC_DESIGN_PERSON_AND_ORGANIZATION_ASSIGNMENT(#627,#634,(#611));
#636=PERSON_AND_ORGANIZATION_ROLE('design_owner');
#637=CC_DESIGN_PERSON_AND_ORGANIZATION_ASSIGNMENT(#627,#636,(#602));
#1=COLOUR_RGB('',0.E0,5.1E-1,1.E0);
#2=COLOUR_RGB('',0.E0,7.84E-1,1.E0);
#3=DRAUGHTING_PRE_DEFINED_COLOUR('green');
#4=COLOUR_RGB('',3.9E-2,3.9E-2,1.E0);
#5=COLOUR_RGB('',1.96E-1,1.96E-1,1.96E-1);
#6=COLOUR_RGB('',4.31E-1,7.84E-1,1.E0);
#7=COLOUR_RGB('',5.76E-1,8.04E-1,8.67E-1);
#8=COLOUR_RGB('',6.35294E-1,6.86275E-1,7.4902E-1);
#9=COLOUR_RGB('',6.66667E-1,6.66667E-1,6.66667E-1);
#10=COLOUR_RGB('',6.66667E-1,6.66667E-1,6.66667E-1);
#11=DRAUGHTING_PRE_DEFINED_COLOUR('red');
#12=DRAUGHTING_PRE_DEFINED_COLOUR('magenta');
#13=COLOUR_RGB('',1.E0,3.14E-1,5.88E-1);
#14=COLOUR_RGB('',1.E0,5.88E-1,0.E0);
#15=COLOUR_RGB('',1.E0,9.01961E-1,3.92157E-1);
#16=DRAUGHTING_PRE_DEFINED_COLOUR('white');
#21=CIRCLE('',#20,1.2E1);
#30=CIRCLE('',#29,1.2E1);
#39=CIRCLE('',#38,9.25E0);
#44=CIRCLE('',#43,9.25E0);
#57=CIRCLE('',#56,9.25E0);
#62=CIRCLE('',#61,9.25E0);
#67=CIRCLE('',#66,1.05E1);
#72=CIRCLE('',#71,1.05E1);
#77=CIRCLE('',#76,1.05E1);
#98=CIRCLE('',#97,1.05E1);
#103=CIRCLE('',#102,9.5E0);
#108=CIRCLE('',#107,9.5E0);
#113=CIRCLE('',#112,1.2E1);
#118=CIRCLE('',#117,1.2E1);
#123=CIRCLE('',#122,3.5E0);
#128=CIRCLE('',#127,1.2E1);
#133=CIRCLE('',#132,1.2E1);
#138=CIRCLE('',#137,2.75E1);
#143=CIRCLE('',#142,1.2E1);
#152=CIRCLE('',#151,3.E1);
#157=CIRCLE('',#156,3.E1);
#170=CIRCLE('',#169,3.E1);
#175=CIRCLE('',#174,3.E1);
#180=CIRCLE('',#179,1.2E1);
#234=EDGE_CURVE('',#207,#187,#34,.T.);
#236=EDGE_CURVE('',#207,#208,#21,.T.);
#238=EDGE_CURVE('',#188,#208,#25,.T.);
#240=EDGE_CURVE('',#187,#188,#128,.T.);
#251=EDGE_CURVE('',#207,#208,#30,.T.);
#254=EDGE_CURVE('',#188,#187,#113,.T.);
#268=EDGE_CURVE('',#196,#200,#39,.T.);
#270=EDGE_CURVE('',#196,#200,#44,.T.);
#287=EDGE_CURVE('',#195,#196,#48,.T.);
#290=EDGE_CURVE('',#199,#200,#52,.T.);
#292=EDGE_CURVE('',#195,#199,#57,.T.);
#310=EDGE_CURVE('',#195,#199,#62,.T.);
#329=EDGE_CURVE('',#203,#204,#67,.T.);
#331=EDGE_CURVE('',#203,#204,#72,.T.);
#352=EDGE_CURVE('',#211,#212,#77,.T.);
#354=EDGE_CURVE('',#211,#203,#81,.T.);
#357=EDGE_CURVE('',#212,#204,#85,.T.);
#375=EDGE_CURVE('',#212,#216,#93,.T.);
#377=EDGE_CURVE('',#215,#216,#103,.T.);
#379=EDGE_CURVE('',#211,#215,#89,.T.);
#396=EDGE_CURVE('',#212,#211,#98,.T.);
#399=EDGE_CURVE('',#216,#215,#108,.T.);
#454=EDGE_CURVE('',#190,#187,#138,.T.);
#456=EDGE_CURVE('',#190,#192,#118,.T.);
#458=EDGE_CURVE('',#192,#188,#123,.T.);
#470=EDGE_CURVE('',#192,#190,#133,.T.);
#481=EDGE_CURVE('',#227,#228,#143,.T.);
#483=EDGE_CURVE('',#228,#190,#147,.T.);
#486=EDGE_CURVE('',#227,#192,#184,.T.);
#496=EDGE_CURVE('',#220,#224,#152,.T.);
#498=EDGE_CURVE('',#220,#224,#157,.T.);
#503=EDGE_CURVE('',#228,#227,#180,.T.);
#520=EDGE_CURVE('',#219,#220,#161,.T.);
#523=EDGE_CURVE('',#223,#224,#165,.T.);
#525=EDGE_CURVE('',#219,#223,#170,.T.);
#543=EDGE_CURVE('',#219,#223,#175,.T.);
#588=(LENGTH_UNIT()NAMED_UNIT(*)SI_UNIT(.MILLI.,.METRE.));
#590=(NAMED_UNIT(*)PLANE_ANGLE_UNIT()SI_UNIT($,.RADIAN.));
#593=(NAMED_UNIT(*)SI_UNIT($,.STERADIAN.)SOLID_ANGLE_UNIT());
#596=ADVANCED_BREP_SHAPE_REPRESENTATION('',(#587),#595);
#604=PRODUCT_DEFINITION('design','',#603,#600);
#605=PRODUCT_DEFINITION_SHAPE('','SHAPE FOR ZSOF034CR.',#604);
#606=SHAPE_DEFINITION_REPRESENTATION(#605,#596);
ENDSEC;
END-ISO-10303-21;
